  0
SECTION
  2
HEADER
  9
$ACADVER
  1
AC1015
  9
$ACADMAINTVER
 70
     6
  9
$DWGCODEPAGE
  3
ANSI_1254
  9
$INSBASE
 10
0.0
 20
0.0
 30
0.0
  9
$EXTMIN
 10
0.0
 20
0.0
 30
0.0
  9
$EXTMAX
 10
279.4
 20
215.9
 30
0.0
  9
$LIMMIN
 10
0.0
 20
0.0
  9
$LIMMAX
 10
279.4
 20
215.9
  9
$ORTHOMODE
 70
     0
  9
$REGENMODE
 70
     1
  9
$FILLMODE
 70
     1
  9
$QTEXTMODE
 70
     0
  9
$MIRRTEXT
 70
     1
  9
$LTSCALE
 40
1.0
  9
$ATTMODE
 70
     1
  9
$TEXTSIZE
 40
3.5
  9
$TRACEWID
 40
1.0
  9
$TEXTSTYLE
  7
Standard
  9
$CLAYER
  8
0
  9
$CELTYPE
  6
ByLayer
  9
$CECOLOR
 62
   256
  9
$CELTSCALE
 40
1.0
  9
$DISPSILH
 70
     0
  9
$DIMSCALE
 40
1.0
  9
$DIMASZ
 40
3.5
  9
$DIMEXO
 40
1.0
  9
$DIMDLI
 40
3.75
  9
$DIMRND
 40
0.0
  9
$DIMDLE
 40
0.0
  9
$DIMEXE
 40
1.0
  9
$DIMTP
 40
0.0
  9
$DIMTM
 40
0.0
  9
$DIMTXT
 40
3.5
  9
$DIMCEN
 40
2.5
  9
$DIMTSZ
 40
0.0
  9
$DIMTOL
 70
     0
  9
$DIMLIM
 70
     0
  9
$DIMTIH
 70
     1
  9
$DIMTOH
 70
     1
  9
$DIMSE1
 70
     0
  9
$DIMSE2
 70
     0
  9
$DIMTAD
 70
     1
  9
$DIMZIN
 70
     0
  9
$DIMBLK
  1

  9
$DIMASO
 70
     1
  9
$DIMSHO
 70
     1
  9
$DIMPOST
  1

  9
$DIMAPOST
  1

  9
$DIMALT
 70
     0
  9
$DIMALTD
 70
     3
  9
$DIMALTF
 40
0.0393700787
  9
$DIMLFAC
 40
1.0
  9
$DIMTOFL
 70
     1
  9
$DIMTVP
 40
0.0
  9
$DIMTIX
 70
     0
  9
$DIMSOXD
 70
     0
  9
$DIMSAH
 70
     0
  9
$DIMBLK1
  1

  9
$DIMBLK2
  1

  9
$DIMSTYLE
  2
ISO-25
  9
$DIMCLRD
 70
     0
  9
$DIMCLRE
 70
     0
  9
$DIMCLRT
 70
     0
  9
$DIMTFAC
 40
1.0
  9
$DIMGAP
 40
1.524
  9
$DIMJUST
 70
     0
  9
$DIMSD1
 70
     0
  9
$DIMSD2
 70
     0
  9
$DIMTOLJ
 70
     0
  9
$DIMTZIN
 70
     0
  9
$DIMALTZ
 70
     0
  9
$DIMALTTZ
 70
     0
  9
$DIMUPT
 70
     0
  9
$DIMDEC
 70
     2
  9
$DIMTDEC
 70
     2
  9
$DIMALTU
 70
     2
  9
$DIMALTTD
 70
     3
  9
$DIMTXSTY
  7
Standard
  9
$DIMAUNIT
 70
     0
  9
$DIMADEC
 70
     2
  9
$DIMALTRND
 40
0.0
  9
$DIMAZIN
 70
     0
  9
$DIMDSEP
 70
    44
  9
$DIMATFIT
 70
     3
  9
$DIMFRAC
 70
     0
  9
$DIMLDRBLK
  1

  9
$DIMLUNIT
 70
     2
  9
$DIMLWD
 70
    -2
  9
$DIMLWE
 70
    -2
  9
$DIMTMOVE
 70
     0
  9
$LUNITS
 70
     2
  9
$LUPREC
 70
     2
  9
$SKETCHINC
 40
1.0
  9
$FILLETRAD
 40
10.0
  9
$AUNITS
 70
     0
  9
$AUPREC
 70
     2
  9
$MENU
  1
.
  9
$ELEVATION
 40
0.0
  9
$PELEVATION
 40
0.0
  9
$THICKNESS
 40
0.0
  9
$LIMCHECK
 70
     0
  9
$CHAMFERA
 40
0.0
  9
$CHAMFERB
 40
0.0
  9
$CHAMFERC
 40
0.0
  9
$CHAMFERD
 40
0.0
  9
$SKPOLY
 70
     0
  9
$TDCREATE
 40
2458985.706179248
  9
$TDUCREATE
 40
2458985.581179248
  9
$TDUPDATE
 40
2458985.706179572
  9
$TDUUPDATE
 40
2458985.581179572
  9
$TDINDWG
 40
0.0000000116
  9
$TDUSRTIMER
 40
0.0000000116
  9
$USRTIMER
 70
     1
  9
$ANGBASE
 50
0.0
  9
$ANGDIR
 70
     0
  9
$PDMODE
 70
     0
  9
$PDSIZE
 40
-1.0
  9
$PLINEWID
 40
0.0
  9
$SPLFRAME
 70
     0
  9
$SPLINETYPE
 70
     6
  9
$SPLINESEGS
 70
     8
  9
$HANDSEED
  5
F1
  9
$SURFTAB1
 70
     6
  9
$SURFTAB2
 70
     6
  9
$SURFTYPE
 70
     6
  9
$SURFU
 70
     6
  9
$SURFV
 70
     6
  9
$UCSBASE
  2

  9
$UCSNAME
  2

  9
$UCSORG
 10
0.0
 20
0.0
 30
0.0
  9
$UCSXDIR
 10
1.0
 20
0.0
 30
0.0
  9
$UCSYDIR
 10
0.0
 20
1.0
 30
0.0
  9
$UCSORTHOREF
  2

  9
$UCSORTHOVIEW
 70
     0
  9
$UCSORGTOP
 10
0.0
 20
0.0
 30
0.0
  9
$UCSORGBOTTOM
 10
0.0
 20
0.0
 30
0.0
  9
$UCSORGLEFT
 10
0.0
 20
0.0
 30
0.0
  9
$UCSORGRIGHT
 10
0.0
 20
0.0
 30
0.0
  9
$UCSORGFRONT
 10
0.0
 20
0.0
 30
0.0
  9
$UCSORGBACK
 10
0.0
 20
0.0
 30
0.0
  9
$PUCSBASE
  2

  9
$PUCSNAME
  2

  9
$PUCSORG
 10
0.0
 20
0.0
 30
0.0
  9
$PUCSXDIR
 10
1.0
 20
0.0
 30
0.0
  9
$PUCSYDIR
 10
0.0
 20
1.0
 30
0.0
  9
$PUCSORTHOREF
  2

  9
$PUCSORTHOVIEW
 70
     0
  9
$PUCSORGTOP
 10
0.0
 20
0.0
 30
0.0
  9
$PUCSORGBOTTOM
 10
0.0
 20
0.0
 30
0.0
  9
$PUCSORGLEFT
 10
0.0
 20
0.0
 30
0.0
  9
$PUCSORGRIGHT
 10
0.0
 20
0.0
 30
0.0
  9
$PUCSORGFRONT
 10
0.0
 20
0.0
 30
0.0
  9
$PUCSORGBACK
 10
0.0
 20
0.0
 30
0.0
  9
$USERI1
 70
     0
  9
$USERI2
 70
     0
  9
$USERI3
 70
     0
  9
$USERI4
 70
     0
  9
$USERI5
 70
     0
  9
$USERR1
 40
0.0
  9
$USERR2
 40
0.0
  9
$USERR3
 40
0.0
  9
$USERR4
 40
0.0
  9
$USERR5
 40
0.0
  9
$WORLDVIEW
 70
     1
  9
$SHADEDGE
 70
     3
  9
$SHADEDIF
 70
    70
  9
$TILEMODE
 70
     1
  9
$MAXACTVP
 70
    64
  9
$PINSBASE
 10
0.0
 20
0.0
 30
0.0
  9
$PLIMCHECK
 70
     0
  9
$PEXTMIN
 10
1.0000000000E+20
 20
1.0000000000E+20
 30
1.0000000000E+20
  9
$PEXTMAX
 10
-1.0000000000E+20
 20
-1.0000000000E+20
 30
-1.0000000000E+20
  9
$PLIMMIN
 10
0.0
 20
0.0
  9
$PLIMMAX
 10
420.0
 20
297.0
  9
$UNITMODE
 70
     0
  9
$VISRETAIN
 70
     1
  9
$PLINEGEN
 70
     0
  9
$PSLTSCALE
 70
     1
  9
$TREEDEPTH
 70
  3020
  9
$CMLSTYLE
  2
Standard
  9
$CMLJUST
 70
     0
  9
$CMLSCALE
 40
20.0
  9
$PROXYGRAPHICS
 70
     1
  9
$MEASUREMENT
 70
     1
  9
$CELWEIGHT
370
    -1
  9
$ENDCAPS
280
     0
  9
$JOINSTYLE
280
     0
  9
$LWDISPLAY
290
     1
  9
$INSUNITS
 70
     4
  9
$HYPERLINKBASE
  1

  9
$STYLESHEET
  1

  9
$XEDIT
290
     1
  9
$CEPSNTYPE
380
     0
  9
$PSTYLEMODE
290
     1
  9
$FINGERPRINTGUID
  2
{a55fe2e0-ead2-4cf3-b8f3-722e842540f1}
  9
$VERSIONGUID
  2
{FAEB1C32-E019-11D5-929B-00C0DF256EC4}
  9
$EXTNAMES
290
     1
  9
$PSVPSCALE
 40
0.0
  9
$OLESTARTUP
290
     0
  0
ENDSEC
  0
SECTION
  2
CLASSES
  0
CLASS
  1
ACDBDICTIONARYWDFLT
  2
AcDbDictionaryWithDefault
  3
ObjectDBX Classes
 90
        0
280
     0
281
     0
  0
CLASS
  1
VISUALSTYLE
  2
AcDbVisualStyle
  3
ObjectDBX Classes
 90
     4095
280
     0
281
     0
  0
CLASS
  1
MATERIAL
  2
AcDbMaterial
  3
ObjectDBX Classes
 90
     1153
280
     0
281
     0
  0
CLASS
  1
SCALE
  2
AcDbScale
  3
ObjectDBX Classes
 90
     1153
280
     0
281
     0
  0
CLASS
  1
TABLESTYLE
  2
AcDbTableStyle
  3
ObjectDBX Classes
 90
     4095
280
     0
281
     0
  0
CLASS
  1
MLEADERSTYLE
  2
AcDbMLeaderStyle
  3
ACDB_MLEADERSTYLE_CLASS
 90
     4095
280
     0
281
     0
  0
CLASS
  1
SUN
  2
AcDbSun
  3
SCENEOE
 90
     1153
280
     0
281
     0
  0
CLASS
  1
ACDBPLACEHOLDER
  2
AcDbPlaceHolder
  3
ObjectDBX Classes
 90
        0
280
     0
281
     0
  0
CLASS
  1
LAYOUT
  2
AcDbLayout
  3
ObjectDBX Classes
 90
        0
280
     0
281
     0
  0
ENDSEC
  0
SECTION
  2
TABLES
  0
TABLE
  2
VPORT
  5
8
330
0
100
AcDbSymbolTable
 70
     1
  0
VPORT
  5
29
330
8
100
AcDbSymbolTableRecord
100
AcDbViewportTableRecord
  2
*Active
 70
     0
 10
0.0
 20
0.0
 11
1.0
 21
1.0
 12
139.7
 22
107.95
 13
0.0
 23
0.0
 14
10.0
 24
10.0
 15
10.0
 25
10.0
 16
0.0
 26
0.0
 36
1.0
 17
0.0
 27
0.0
 37
0.0
 40
215.9
 41
1.2941176471
 42
50.0
 43
0.0
 44
0.0
 50
0.0
 51
0.0
 71
     0
 72
  2000
 73
     1
 74
     3
 75
     0
 76
     0
 77
     0
 78
     0
281
     0
 65
     1
110
0.0
120
0.0
130
0.0
111
1.0
121
0.0
131
0.0
112
0.0
122
1.0
132
0.0
 79
     0
146
0.0
  0
ENDTAB
  0
TABLE
  2
LTYPE
  5
5
330
0
100
AcDbSymbolTable
 70
     6
  0
LTYPE
  5
14
330
5
100
AcDbSymbolTableRecord
100
AcDbLinetypeTableRecord
  2
ByBlock
 70
     0
  3

 72
    65
 73
     0
 40
0.0
  0
LTYPE
  5
15
330
5
100
AcDbSymbolTableRecord
100
AcDbLinetypeTableRecord
  2
ByLayer
 70
     0
  3

 72
    65
 73
     0
 40
0.0
  0
LTYPE
  5
16
330
5
100
AcDbSymbolTableRecord
100
AcDbLinetypeTableRecord
  2
Continuous
 70
     0
  3
Solid line
 72
    65
 73
     0
 40
0.0
  0
LTYPE
  5
6E
330
5
100
AcDbSymbolTableRecord
100
AcDbLinetypeTableRecord
  2
HIDDEN
 70
     0
  3
Hidden __ __ __ __ __ __ __ __ __ __ __ __ __ __
 72
    65
 73
     2
 40
1.905
 49
1.27
 74
     0
 49
-0.635
 74
     0
  0
LTYPE
  5
6F
330
5
100
AcDbSymbolTableRecord
100
AcDbLinetypeTableRecord
  2
PHANTOM
 70
     0
  3
Phantom ______  __  __  ______  __  __  ______
 72
    65
 73
     6
 40
12.7
 49
6.35
 74
     0
 49
-1.27
 74
     0
 49
1.27
 74
     0
 49
-1.27
 74
     0
 49
1.27
 74
     0
 49
-1.27
 74
     0
  0
LTYPE
  5
70
330
5
100
AcDbSymbolTableRecord
100
AcDbLinetypeTableRecord
  2
CENTER
 70
     0
  3
Center ____ _ ____ _ ____ _ ____ _ ____ _ ____
 72
    65
 73
     4
 40
10.16
 49
6.35
 74
     0
 49
-1.27
 74
     0
 49
1.27
 74
     0
 49
-1.27
 74
     0
  0
LTYPE
  5
71
330
5
100
AcDbSymbolTableRecord
100
AcDbLinetypeTableRecord
  2
CENTERX2
 70
     0
  3
Center (2x) ________  __  ________  __  _____
 72
    65
 73
     4
 40
20.32
 49
12.7
 74
     0
 49
-2.54
 74
     0
 49
2.54
 74
     0
 49
-2.54
 74
     0
  0
LTYPE
  5
72
330
5
100
AcDbSymbolTableRecord
100
AcDbLinetypeTableRecord
  2
DOT2
 70
     0
  3
Dot (.5x) ........................................
 72
    65
 73
     2
 40
0.635
 49
0.0
 74
     0
 49
-0.635
 74
     0
  0
ENDTAB
  0
TABLE
  2
LAYER
  5
2
330
0
100
AcDbSymbolTable
 70
    17
  0
LAYER
  5
10
330
2
100
AcDbSymbolTableRecord
100
AcDbLayerTableRecord
  2
0
 70
     0
 62
     7
  6
Continuous
370
    -3
390
F
  0
LAYER
  5
73
330
2
100
AcDbSymbolTableRecord
100
AcDbLayerTableRecord
  2
FORMAT
 70
     0
 62
     7
  6
Continuous
370
    -3
390
F
  0
LAYER
  5
74
330
2
100
AcDbSymbolTableRecord
100
AcDbLayerTableRecord
  2
YARDIMCI_GEOMETRI
 70
     0
 62
    -6
  6
Continuous
290
     0
370
    -3
390
F
  0
LAYER
  5
75
330
2
100
AcDbSymbolTableRecord
100
AcDbLayerTableRecord
  2
SAYFA_CERCEVESI
 70
     0
 62
     7
  6
Continuous
370
    25
390
F
  0
LAYER
  5
76
330
2
100
AcDbSymbolTableRecord
100
AcDbLayerTableRecord
  2
ANTET
 70
     0
 62
     7
  6
Continuous
370
    -3
390
F
  0
LAYER
  5
77
330
2
100
AcDbSymbolTableRecord
100
AcDbLayerTableRecord
  2
OLCU
 70
     0
 62
   150
  6
Continuous
370
    -3
390
F
  0
LAYER
  5
78
330
2
100
AcDbSymbolTableRecord
100
AcDbLayerTableRecord
  2
METIN
 70
     0
 62
    96
  6
Continuous
370
    -3
390
F
  0
LAYER
  5
79
330
2
100
AcDbSymbolTableRecord
100
AcDbLayerTableRecord
  2
BALON
 70
     0
 62
     5
  6
Continuous
370
    -3
390
F
  0
LAYER
  5
7A
330
2
100
AcDbSymbolTableRecord
100
AcDbLayerTableRecord
  2
VURGU
 70
     0
 62
     7
  6
Continuous
370
    -3
390
F
  0
LAYER
  5
7B
330
2
100
AcDbSymbolTableRecord
100
AcDbLayerTableRecord
  2
SILIK
 70
     0
 62
     7
  6
Continuous
370
    -3
390
F
  0
LAYER
  5
7C
330
2
100
AcDbSymbolTableRecord
100
AcDbLayerTableRecord
  2
MODEL
 70
     0
 62
     7
  6
Continuous
370
    -3
390
F
  0
LAYER
  5
7D
330
2
100
AcDbSymbolTableRecord
100
AcDbLayerTableRecord
  2
DETAYLANDıRMA
 70
     0
 62
   190
  6
Continuous
370
    -3
390
F
  0
LAYER
  5
7E
330
2
100
AcDbSymbolTableRecord
100
AcDbLayerTableRecord
  2
TOLERANS
 70
     0
 62
   230
  6
Continuous
370
    -3
390
F
  0
LAYER
  5
7F
330
2
100
AcDbSymbolTableRecord
100
AcDbLayerTableRecord
  2
MERKEZ_CIZGILERI
 70
     0
 62
    30
  6
Continuous
370
    -3
390
F
  0
LAYER
  5
80
330
2
100
AcDbSymbolTableRecord
100
AcDbLayerTableRecord
  2
KESIT-DETAY_CIZGILERI
 70
     0
 62
     7
  6
Continuous
370
    -3
390
F
  0
LAYER
  5
81
330
2
100
AcDbSymbolTableRecord
100
AcDbLayerTableRecord
  2
\U+041E\U+0421\U+0415\U+0412\U+042B\U+0415
 70
     0
 62
     7
  6
Continuous
370
    -3
390
F
  0
LAYER
  5
82
330
2
100
AcDbSymbolTableRecord
100
AcDbLayerTableRecord
  2
\U+0412\U+041E\U+0414\U+042F\U+041D\U+042B\U+0415_\U+0417\U+041D\U+0410\U+041A\U+0418
 70
     0
 62
    11
  6
Continuous
370
    -3
390
F
  0
ENDTAB
  0
TABLE
  2
STYLE
  5
3
330
0
100
AcDbSymbolTable
 70
     1
  0
STYLE
  5
11
330
3
100
AcDbSymbolTableRecord
100
AcDbTextStyleTableRecord
  2
Standard
 70
     0
 40
0.0
 41
1.0
 50
0.0
 71
     0
 42
3.5
  3
txt
  4

  0
ENDTAB
  0
TABLE
  2
VIEW
  5
6
330
0
100
AcDbSymbolTable
 70
     0
  0
ENDTAB
  0
TABLE
  2
UCS
  5
7
330
0
100
AcDbSymbolTable
 70
     0
  0
ENDTAB
  0
TABLE
  2
APPID
  5
9
330
0
100
AcDbSymbolTable
 70
     1
  0
APPID
  5
12
330
9
100
AcDbSymbolTableRecord
100
AcDbRegAppTableRecord
  2
ACAD
 70
     0
  0
ENDTAB
  0
TABLE
  2
DIMSTYLE
  5
A
330
0
100
AcDbSymbolTable
 70
     1
100
AcDbDimStyleTable
  0
DIMSTYLE
105
27
330
A
100
AcDbSymbolTableRecord
100
AcDbDimStyleTableRecord
  2
ISO-25
 70
     0
 41
2.5
 42
0.625
 43
3.75
 44
1.25
 73
     0
 74
     0
 77
     1
 78
     8
140
2.5
141
2.5
143
0.0393700787
147
0.625
171
     3
172
     1
178
     0
271
     2
272
     2
274
     3
278
    44
283
     0
284
     8
340
11
  0
ENDTAB
  0
TABLE
  2
BLOCK_RECORD
  5
1
330
0
100
AcDbSymbolTable
 70
     2
  0
BLOCK_RECORD
  5
1F
330
1
100
AcDbSymbolTableRecord
100
AcDbBlockTableRecord
  2
*Model_Space
340
22
  0
BLOCK_RECORD
  5
1B
330
1
100
AcDbSymbolTableRecord
100
AcDbBlockTableRecord
  2
*Paper_Space
340
1E
  0
BLOCK_RECORD
  5
23
330
1
100
AcDbSymbolTableRecord
100
AcDbBlockTableRecord
  2
*Paper_Space0
340
26
  0
BLOCK_RECORD
  5
88
330
1
100
AcDbSymbolTableRecord
100
AcDbBlockTableRecord
  2
SW_CENTERMARKSYMBOL_0
340
0
102
{BLKREFS
331
93
102
}
  0
ENDTAB
  0
ENDSEC
  0
SECTION
  2
BLOCKS
  0
BLOCK
  5
20
330
1F
100
AcDbEntity
  8
0
100
AcDbBlockBegin
  2
*Model_Space
 70
     0
 10
0.0
 20
0.0
 30
0.0
  3
*Model_Space
  1

  0
ENDBLK
  5
21
330
1F
100
AcDbEntity
  8
0
100
AcDbBlockEnd
  0
BLOCK
  5
1C
330
1B
100
AcDbEntity
 67
     1
  8
0
100
AcDbBlockBegin
  2
*Paper_Space
 70
     0
 10
0.0
 20
0.0
 30
0.0
  3
*Paper_Space
  1

  0
ENDBLK
  5
1D
330
1B
100
AcDbEntity
 67
     1
  8
0
100
AcDbBlockEnd
  0
BLOCK
  5
24
330
23
100
AcDbEntity
  8
0
100
AcDbBlockBegin
  2
*Paper_Space0
 70
     0
 10
0.0
 20
0.0
 30
0.0
  3
*Paper_Space0
  1

  0
ENDBLK
  5
25
330
23
100
AcDbEntity
  8
0
100
AcDbBlockEnd
  0
BLOCK
  5
89
330
88
100
AcDbEntity
  8
0
100
AcDbBlockBegin
  2
SW_CENTERMARKSYMBOL_0
 70
     0
 10
0.0
 20
0.0
 30
0.0
  3
SW_CENTERMARKSYMBOL_0
  1

  0
LINE
  5
8B
330
88
100
AcDbEntity
  8
FORMAT
 62
     0
100
AcDbLine
 10
0.0
 20
0.0
 30
0.0
 11
0.0
 21
2.5
 31
0.0
  0
LINE
  5
8C
330
88
100
AcDbEntity
  8
FORMAT
 62
     0
100
AcDbLine
 10
0.0
 20
0.0
 30
0.0
 11
-2.5
 21
0.0
 31
0.0
  0
LINE
  5
8D
330
88
100
AcDbEntity
  8
FORMAT
 62
     0
100
AcDbLine
 10
0.0
 20
0.0
 30
0.0
 11
0.0
 21
-2.5
 31
0.0
  0
LINE
  5
8E
330
88
100
AcDbEntity
  8
FORMAT
 62
     0
100
AcDbLine
 10
0.0
 20
0.0
 30
0.0
 11
2.5
 21
0.0
 31
0.0
  0
LINE
  5
8F
330
88
100
AcDbEntity
  8
FORMAT
 62
     0
100
AcDbLine
 10
0.0
 20
5.0
 30
0.0
 11
0.0
 21
142.5
 31
0.0
  0
LINE
  5
90
330
88
100
AcDbEntity
  8
FORMAT
 62
     0
100
AcDbLine
 10
-5.0
 20
0.0
 30
0.0
 11
-142.5
 21
0.0
 31
0.0
  0
LINE
  5
91
330
88
100
AcDbEntity
  8
FORMAT
 62
     0
100
AcDbLine
 10
0.0
 20
-5.0
 30
0.0
 11
0.0
 21
-142.5
 31
0.0
  0
LINE
  5
92
330
88
100
AcDbEntity
  8
FORMAT
 62
     0
100
AcDbLine
 10
5.0
 20
0.0
 30
0.0
 11
142.5
 21
0.0
 31
0.0
  0
ENDBLK
  5
8A
330
88
100
AcDbEntity
  8
0
100
AcDbBlockEnd
  0
ENDSEC
  0
SECTION
  2
ENTITIES
  0
CIRCLE
  5
83
330
1F
100
AcDbEntity
  8
0
  6
Continuous
 62
     7
370
    25
100
AcDbCircle
 10
130.6810329512
 20
112.0420513222
 30
0.0
 40
140.0
  0
CIRCLE
  5
84
330
1F
100
AcDbEntity
  8
0
  6
Continuous
 62
     7
370
    25
100
AcDbCircle
 10
130.6810329512
 20
112.0420513222
 30
0.0
 40
123.4
  0
CIRCLE
  5
85
330
1F
100
AcDbEntity
  8
0
  6
Continuous
 62
     7
370
    25
100
AcDbCircle
 10
130.6810329512
 20
112.0420513222
 30
0.0
 40
123.0224029614453
  0
CIRCLE
  5
86
330
1F
100
AcDbEntity
  8
0
  6
Continuous
 62
     7
370
    25
100
AcDbCircle
 10
130.6810329512
 20
112.0420513222
 30
0.0
 40
88.47759703855478
  0
CIRCLE
  5
87
330
1F
100
AcDbEntity
  8
0
  6
Continuous
 62
     7
370
    25
100
AcDbCircle
 10
130.6810329512
 20
112.0420513222
 30
0.0
 40
88.10000000000004
  0
INSERT
  5
93
330
1F
100
AcDbEntity
  8
FORMAT
 62
     7
100
AcDbBlockReference
  2
SW_CENTERMARKSYMBOL_0
 10
130.6810329512
 20
112.0420513222
 30
0.0
  0
ARC
  5
94
330
1F
100
AcDbEntity
  8
0
  6
Continuous
 62
     7
370
    25
100
AcDbCircle
 10
-362.222208281
 20
250.0420513222
 30
0.0
 40
2.0
100
AcDbArc
 50
67.5901626285
 51
90.0
  0
ARC
  5
95
330
1F
100
AcDbEntity
  8
0
  6
Continuous
 62
     7
370
    25
100
AcDbCircle
 10
-362.222208281
 20
-25.9579486778
 30
0.0
 40
2.0
100
AcDbArc
 50
270.0
 51
292.4098373715
  0
LINE
  5
96
330
1F
100
AcDbEntity
  8
0
  6
Continuous
 62
     7
370
    25
100
AcDbLine
 10
-362.2222073088
 20
252.0420519183
 30
0.0
 11
-500.8260138045
 21
252.0420519183
 31
0.0
  0
LINE
  5
97
330
1F
100
AcDbEntity
  8
0
  6
Continuous
 62
     7
370
    25
100
AcDbLine
 10
-500.8260138045
 20
-27.9579492738
 30
0.0
 11
-362.2222073088
 21
-27.9579492738
 31
0.0
  0
LINE
  5
98
330
1F
100
AcDbEntity
  8
0
  6
Continuous
 62
     7
370
    25
100
AcDbLine
 10
-361.4597484181
 20
-27.806911104
 30
0.0
 11
-265.1922866414
 21
11.8910116622
 31
0.0
  0
LINE
  5
99
330
1F
100
AcDbEntity
  8
0
  6
Continuous
 62
     7
370
    25
100
AcDbLine
 10
-265.1922866414
 20
212.1930909822
 30
0.0
 11
-361.4597484181
 21
251.8910137484
 31
0.0
  0
ARC
  5
9A
330
1F
100
AcDbEntity
  8
0
  6
Continuous
 62
     7
370
    25
100
AcDbCircle
 10
-264.4298300949
 20
214.0420513222
 30
0.0
 40
2.0
100
AcDbArc
 50
247.5901626285
 51
270.0
  0
ARC
  5
9B
330
1F
100
AcDbEntity
  8
0
  6
Continuous
 62
     7
370
    25
100
AcDbCircle
 10
-264.4298300949
 20
10.0420513222
 30
0.0
 40
2.000000000000002
100
AcDbArc
 50
90.0
 51
112.4098373715
  0
LINE
  5
9C
330
1F
100
AcDbEntity
  8
0
  6
Continuous
 62
     7
370
    25
100
AcDbLine
 10
-152.8260238181
 20
212.0420528123
 30
0.0
 11
-264.429831476
 21
212.0420528123
 31
0.0
  0
LINE
  5
9D
330
1F
100
AcDbEntity
  8
0
  6
Continuous
 62
     7
370
    25
100
AcDbLine
 10
-264.429831476
 20
12.0420498321
 30
0.0
 11
-152.8260238181
 21
12.0420498321
 31
0.0
  0
LINE
  5
9E
330
1F
100
AcDbEntity
  8
0
  6
Continuous
 62
     7
370
    25
100
AcDbLine
 10
-500.8260138045
 20
252.0420519183
 30
0.0
 11
-500.8260138045
 21
-27.9579492738
 31
0.0
  0
LINE
  5
9F
330
1F
100
AcDbEntity
  8
0
  6
Continuous
 62
     7
370
    25
100
AcDbLine
 10
-152.8260238181
 20
212.0420528123
 30
0.0
 11
-152.8260238181
 21
12.0420498321
 31
0.0
  0
LINE
  5
A0
330
1F
100
AcDbEntity
  8
0
  6
Continuous
 62
     1
370
    25
100
AcDbLine
 10
-361.4597484181
 20
251.8910137484
 30
0.0
 11
-361.4597484181
 21
-27.806911104
 31
0.0
  0
LINE
  5
A1
330
1F
100
AcDbEntity
  8
0
  6
Continuous
 62
     1
370
    25
100
AcDbLine
 10
-362.2222073088
 20
252.0420519183
 30
0.0
 11
-362.2222073088
 21
-27.9579492738
 31
0.0
  0
LINE
  5
A2
330
1F
100
AcDbEntity
  8
0
  6
Continuous
 62
     1
370
    25
100
AcDbLine
 10
-265.1922866414
 20
212.1930909822
 30
0.0
 11
-265.1922866414
 21
11.8910116622
 31
0.0
  0
LINE
  5
A3
330
1F
100
AcDbEntity
  8
0
  6
Continuous
 62
     1
370
    25
100
AcDbLine
 10
-264.429831476
 20
212.0420528123
 30
0.0
 11
-264.429831476
 21
12.0420498321
 31
0.0
  0
ARC
  5
A4
330
1F
100
AcDbEntity
  8
0
  6
Continuous
 62
     7
370
    25
100
AcDbCircle
 10
268.6810329512
 20
539.0405603046
 30
0.0
 40
2.0
100
AcDbArc
 50
337.5901626285
 51
0.0
  0
ARC
  5
A5
330
1F
100
AcDbEntity
  8
0
  6
Continuous
 62
     7
370
    25
100
AcDbCircle
 10
-7.3189670488
 20
539.0405603046
 30
0.0
 40
2.000000000000002
100
AcDbArc
 50
180.0
 51
202.4098373715
  0
LINE
  5
A6
330
1F
100
AcDbEntity
  8
0
  6
Continuous
 62
     7
370
    25
100
AcDbLine
 10
270.6810335472
 20
539.0405593324
 30
0.0
 11
270.6810335472
 21
677.644365828
 31
0.0
  0
LINE
  5
A7
330
1F
100
AcDbEntity
  8
0
  6
Continuous
 62
     7
370
    25
100
AcDbLine
 10
-9.3189676449
 20
677.644365828
 30
0.0
 11
-9.3189676449
 21
539.0405593324
 31
0.0
  0
LINE
  5
A8
330
1F
100
AcDbEntity
  8
0
  6
Continuous
 62
     7
370
    25
100
AcDbLine
 10
-9.167929475
 20
538.2781004417
 30
0.0
 11
30.5299932912
 21
442.0106386649
 31
0.0
  0
LINE
  5
A9
330
1F
100
AcDbEntity
  8
0
  6
Continuous
 62
     7
370
    25
100
AcDbLine
 10
230.8320726111
 20
442.0106386649
 30
0.0
 11
270.5299953774
 21
538.2781004417
 31
0.0
  0
ARC
  5
AA
330
1F
100
AcDbEntity
  8
0
  6
Continuous
 62
     7
370
    25
100
AcDbCircle
 10
232.6810329512
 20
441.2481821185
 30
0.0
 40
2.0
100
AcDbArc
 50
157.5901626285
 51
180.0
  0
ARC
  5
AB
330
1F
100
AcDbEntity
  8
0
  6
Continuous
 62
     7
370
    25
100
AcDbCircle
 10
28.6810329512
 20
441.2481821185
 30
0.0
 40
2.000000000000004
100
AcDbArc
 50
0.0
 51
22.4098373715
  0
LINE
  5
AC
330
1F
100
AcDbEntity
  8
0
  6
Continuous
 62
     7
370
    25
100
AcDbLine
 10
230.6810344413
 20
329.6443758416
 30
0.0
 11
230.6810344413
 21
441.2481834996
 31
0.0
  0
LINE
  5
AD
330
1F
100
AcDbEntity
  8
0
  6
Continuous
 62
     7
370
    25
100
AcDbLine
 10
30.6810314611
 20
441.2481834996
 30
0.0
 11
30.6810314611
 21
329.6443758416
 31
0.0
  0
LINE
  5
AE
330
1F
100
AcDbEntity
  8
0
  6
Continuous
 62
     7
370
    25
100
AcDbLine
 10
270.6810335472
 20
677.644365828
 30
0.0
 11
-9.3189676449
 21
677.644365828
 31
0.0
  0
LINE
  5
AF
330
1F
100
AcDbEntity
  8
0
  6
Continuous
 62
     7
370
    25
100
AcDbLine
 10
230.6810344413
 20
329.6443758416
 30
0.0
 11
30.6810314611
 21
329.6443758416
 31
0.0
  0
LINE
  5
B0
330
1F
100
AcDbEntity
  8
0
  6
Continuous
 62
     1
370
    25
100
AcDbLine
 10
270.5299953774
 20
538.2781004417
 30
0.0
 11
-9.167929475
 21
538.2781004417
 31
0.0
  0
LINE
  5
B1
330
1F
100
AcDbEntity
  8
0
  6
Continuous
 62
     1
370
    25
100
AcDbLine
 10
270.6810335472
 20
539.0405593324
 30
0.0
 11
-9.3189676449
 21
539.0405593324
 31
0.0
  0
LINE
  5
B2
330
1F
100
AcDbEntity
  8
0
  6
Continuous
 62
     1
370
    25
100
AcDbLine
 10
230.8320726111
 20
442.0106386649
 30
0.0
 11
30.5299932912
 21
442.0106386649
 31
0.0
  0
LINE
  5
B3
330
1F
100
AcDbEntity
  8
0
  6
Continuous
 62
     1
370
    25
100
AcDbLine
 10
230.6810344413
 20
441.2481834996
 30
0.0
 11
30.6810314611
 21
441.2481834996
 31
0.0
  0
ARC
  5
B4
330
1F
100
AcDbEntity
  8
0
  6
Continuous
 62
     7
370
    25
100
AcDbCircle
 10
593.3586905384
 20
-25.9579486778
 30
0.0
 40
2.000000000000016
100
AcDbArc
 50
247.5901626285
 51
270.0
  0
ARC
  5
B5
330
1F
100
AcDbEntity
  8
0
  6
Continuous
 62
     7
370
    25
100
AcDbCircle
 10
593.3586905384
 20
250.0420513222
 30
0.0
 40
2.000000000000019
100
AcDbArc
 50
90.0
 51
112.4098373715
  0
LINE
  5
B6
330
1F
100
AcDbEntity
  8
0
  6
Continuous
 62
     7
370
    25
100
AcDbLine
 10
593.3586895661
 20
-27.9579492738
 30
0.0
 11
731.9624960618
 21
-27.9579492738
 31
0.0
  0
LINE
  5
B7
330
1F
100
AcDbEntity
  8
0
  6
Continuous
 62
     7
370
    25
100
AcDbLine
 10
731.9624960618
 20
252.0420519183
 30
0.0
 11
593.3586895661
 21
252.0420519183
 31
0.0
  0
LINE
  5
B8
330
1F
100
AcDbEntity
  8
0
  6
Continuous
 62
     7
370
    25
100
AcDbLine
 10
592.5962306755
 20
251.8910137484
 30
0.0
 11
496.3287688987
 21
212.1930909822
 31
0.0
  0
LINE
  5
B9
330
1F
100
AcDbEntity
  8
0
  6
Continuous
 62
     7
370
    25
100
AcDbLine
 10
496.3287688987
 20
11.8910116622
 30
0.0
 11
592.5962306755
 21
-27.806911104
 31
0.0
  0
ARC
  5
BA
330
1F
100
AcDbEntity
  8
0
  6
Continuous
 62
     7
370
    25
100
AcDbCircle
 10
495.5663123523
 20
10.0420513222
 30
0.0
 40
2.000000000000002
100
AcDbArc
 50
67.5901626285
 51
90.0
  0
ARC
  5
BB
330
1F
100
AcDbEntity
  8
0
  6
Continuous
 62
     7
370
    25
100
AcDbCircle
 10
495.5663123523
 20
214.0420513222
 30
0.0
 40
2.0
100
AcDbArc
 50
270.0
 51
292.4098373715
  0
LINE
  5
BC
330
1F
100
AcDbEntity
  8
0
  6
Continuous
 62
     7
370
    25
100
AcDbLine
 10
383.9625060754
 20
12.0420498321
 30
0.0
 11
495.5663137334
 21
12.0420498321
 31
0.0
  0
LINE
  5
BD
330
1F
100
AcDbEntity
  8
0
  6
Continuous
 62
     7
370
    25
100
AcDbLine
 10
495.5663137334
 20
212.0420528123
 30
0.0
 11
383.9625060754
 21
212.0420528123
 31
0.0
  0
LINE
  5
BE
330
1F
100
AcDbEntity
  8
0
  6
Continuous
 62
     7
370
    25
100
AcDbLine
 10
731.9624960618
 20
112.0420513222
 30
0.0
 11
731.9624960618
 21
252.0420519183
 31
0.0
  0
LINE
  5
BF
330
1F
100
AcDbEntity
  8
0
  6
Continuous
 62
     7
370
    25
100
AcDbLine
 10
731.9624960618
 20
-27.9579492738
 30
0.0
 11
731.9624960618
 21
112.0420513222
 31
0.0
  0
LINE
  5
C0
330
1F
100
AcDbEntity
  8
0
  6
Continuous
 62
     7
370
    25
100
AcDbLine
 10
383.9625060754
 20
112.0420513222
 30
0.0
 11
383.9625060754
 21
212.0420528123
 31
0.0
  0
LINE
  5
C1
330
1F
100
AcDbEntity
  8
0
  6
Continuous
 62
     7
370
    25
100
AcDbLine
 10
383.9625060754
 20
12.0420498321
 30
0.0
 11
383.9625060754
 21
112.0420513222
 31
0.0
  0
LINE
  5
C2
330
1F
100
AcDbEntity
  8
0
  6
Continuous
 62
     1
370
    25
100
AcDbLine
 10
592.5962306755
 20
112.0420513222
 30
0.0
 11
592.5962306755
 21
251.8910137484
 31
0.0
  0
LINE
  5
C3
330
1F
100
AcDbEntity
  8
0
  6
Continuous
 62
     1
370
    25
100
AcDbLine
 10
592.5962306755
 20
-27.806911104
 30
0.0
 11
592.5962306755
 21
112.0420513222
 31
0.0
  0
LINE
  5
C4
330
1F
100
AcDbEntity
  8
0
  6
Continuous
 62
     1
370
    25
100
AcDbLine
 10
593.3586895661
 20
112.0420513222
 30
0.0
 11
593.3586895661
 21
252.0420519183
 31
0.0
  0
LINE
  5
C5
330
1F
100
AcDbEntity
  8
0
  6
Continuous
 62
     1
370
    25
100
AcDbLine
 10
593.3586895661
 20
-27.9579492738
 30
0.0
 11
593.3586895661
 21
112.0420513222
 31
0.0
  0
LINE
  5
C6
330
1F
100
AcDbEntity
  8
0
  6
Continuous
 62
     1
370
    25
100
AcDbLine
 10
496.3287688987
 20
112.0420513222
 30
0.0
 11
496.3287688987
 21
212.1930909822
 31
0.0
  0
LINE
  5
C7
330
1F
100
AcDbEntity
  8
0
  6
Continuous
 62
     1
370
    25
100
AcDbLine
 10
496.3287688987
 20
11.8910116622
 30
0.0
 11
496.3287688987
 21
112.0420513222
 31
0.0
  0
LINE
  5
C8
330
1F
100
AcDbEntity
  8
0
  6
Continuous
 62
     1
370
    25
100
AcDbLine
 10
495.5663137334
 20
112.0420513222
 30
0.0
 11
495.5663137334
 21
212.0420528123
 31
0.0
  0
LINE
  5
C9
330
1F
100
AcDbEntity
  8
0
  6
Continuous
 62
     1
370
    25
100
AcDbLine
 10
495.5663137334
 20
12.0420498321
 30
0.0
 11
495.5663137334
 21
112.0420513222
 31
0.0
  0
ARC
  5
CA
330
1F
100
AcDbEntity
  8
0
  6
Continuous
 62
     7
370
    25
100
AcDbCircle
 10
-7.3189670488
 20
-352.9908440643
 30
0.0
 40
2.000000000000016
100
AcDbArc
 50
157.5901626285
 51
180.0
  0
ARC
  5
CB
330
1F
100
AcDbEntity
  8
0
  6
Continuous
 62
     7
370
    25
100
AcDbCircle
 10
268.6810329512
 20
-352.9908440643
 30
0.0
 40
2.000000000000019
100
AcDbArc
 50
0.0
 51
22.4098373715
  0
LINE
  5
CC
330
1F
100
AcDbEntity
  8
0
  6
Continuous
 62
     7
370
    25
100
AcDbLine
 10
-9.3189676449
 20
-352.9908430921
 30
0.0
 11
-9.3189676449
 21
-491.5946495878
 31
0.0
  0
LINE
  5
CD
330
1F
100
AcDbEntity
  8
0
  6
Continuous
 62
     7
370
    25
100
AcDbLine
 10
270.6810335472
 20
-491.5946495878
 30
0.0
 11
270.6810335472
 21
-352.9908430921
 31
0.0
  0
LINE
  5
CE
330
1F
100
AcDbEntity
  8
0
  6
Continuous
 62
     7
370
    25
100
AcDbLine
 10
270.5299953774
 20
-352.2283842015
 30
0.0
 11
230.8320726111
 21
-255.9609224247
 31
0.0
  0
LINE
  5
CF
330
1F
100
AcDbEntity
  8
0
  6
Continuous
 62
     7
370
    25
100
AcDbLine
 10
30.5299932912
 20
-255.9609224247
 30
0.0
 11
-9.167929475
 21
-352.2283842015
 31
0.0
  0
ARC
  5
D0
330
1F
100
AcDbEntity
  8
0
  6
Continuous
 62
     7
370
    25
100
AcDbCircle
 10
28.6810329512
 20
-255.1984658782
 30
0.0
 40
2.000000000000004
100
AcDbArc
 50
337.5901626285
 51
0.0
  0
ARC
  5
D1
330
1F
100
AcDbEntity
  8
0
  6
Continuous
 62
     7
370
    25
100
AcDbCircle
 10
232.6810329512
 20
-255.1984658782
 30
0.0
 40
2.0
100
AcDbArc
 50
180.0
 51
202.4098373715
  0
LINE
  5
D2
330
1F
100
AcDbEntity
  8
0
  6
Continuous
 62
     7
370
    25
100
AcDbLine
 10
30.6810314611
 20
-143.5946596014
 30
0.0
 11
30.6810314611
 21
-255.1984672593
 31
0.0
  0
LINE
  5
D3
330
1F
100
AcDbEntity
  8
0
  6
Continuous
 62
     7
370
    25
100
AcDbLine
 10
230.6810344413
 20
-255.1984672593
 30
0.0
 11
230.6810344413
 21
-143.5946596014
 31
0.0
  0
LINE
  5
D4
330
1F
100
AcDbEntity
  8
0
  6
Continuous
 62
     7
370
    25
100
AcDbLine
 10
-9.3189676449
 20
-491.5946495878
 30
0.0
 11
270.6810335472
 21
-491.5946495878
 31
0.0
  0
LINE
  5
D5
330
1F
100
AcDbEntity
  8
0
  6
Continuous
 62
     7
370
    25
100
AcDbLine
 10
30.6810314611
 20
-143.5946596014
 30
0.0
 11
230.6810344413
 21
-143.5946596014
 31
0.0
  0
LINE
  5
D6
330
1F
100
AcDbEntity
  8
0
  6
Continuous
 62
     1
370
    25
100
AcDbLine
 10
-9.167929475
 20
-352.2283842015
 30
0.0
 11
270.5299953774
 21
-352.2283842015
 31
0.0
  0
LINE
  5
D7
330
1F
100
AcDbEntity
  8
0
  6
Continuous
 62
     1
370
    25
100
AcDbLine
 10
-9.3189676449
 20
-352.9908430921
 30
0.0
 11
270.6810335472
 21
-352.9908430921
 31
0.0
  0
LINE
  5
D8
330
1F
100
AcDbEntity
  8
0
  6
Continuous
 62
     1
370
    25
100
AcDbLine
 10
30.5299932912
 20
-255.9609224247
 30
0.0
 11
230.8320726111
 21
-255.9609224247
 31
0.0
  0
LINE
  5
D9
330
1F
100
AcDbEntity
  8
0
  6
Continuous
 62
     1
370
    25
100
AcDbLine
 10
30.6810314611
 20
-255.1984672593
 30
0.0
 11
230.6810344413
 21
-255.1984672593
 31
0.0
  0
LINE
  5
DA
330
1F
100
AcDbEntity
  8
0
  6
Continuous
 62
     7
370
    25
100
AcDbLine
 10
606.4732852163
 20
-181.1610653229
 30
0.0
 11
508.4655937449
 21
-124.5824293466
 31
0.0
  0
LINE
  5
DB
330
1F
100
AcDbEntity
  8
0
  6
Continuous
 62
     7
370
    25
100
AcDbLine
 10
368.4769753685
 20
-367.0761097418
 30
0.0
 11
466.4846668399
 21
-423.6547457181
 31
0.0
  0
SPLINE
  5
DC
330
1F
100
AcDbEntity
  8
0
  6
Continuous
 62
     7
370
    25
100
AcDbSpline
210
0.0
220
0.0
230
1.0
 70
     8
 71
     3
 72
    10
 73
     6
 74
     0
 42
0.000000001
 43
0.00000001
 40
0.0
 40
0.0
 40
0.0
 40
0.0
 40
0.0180697922397079
 40
0.7306495309497457
 40
1.0
 40
1.0
 40
1.0
 40
1.0
 10
618.8455031333408
 20
-191.3421819733474
 30
0.0
 10
618.8236991179854
 20
-191.315579569035
 30
0.0
 10
617.9420567957667
 20
-190.2399150580581
 30
0.0
 10
616.629606963008
 20
-188.9004447980337
 30
0.0
 10
615.2647819665107
 20
-187.6980467562931
 30
0.0
 10
614.89040072223
 20
-187.3682203857747
 30
0.0
  0
SPLINE
  5
DD
330
1F
100
AcDbEntity
  8
0
  6
Continuous
 62
     7
370
    25
100
AcDbSpline
210
0.0
220
0.0
230
1.0
 70
     8
 71
     3
 72
     9
 73
     5
 74
     0
 42
0.000000001
 43
0.00000001
 40
0.0
 40
0.0
 40
0.0
 40
0.0
 40
0.3306877056851329
 40
1.0
 40
1.0
 40
1.0
 40
1.0
 10
475.911734105834
 20
-427.7916010328873
 30
0.0
 10
476.3244547404784
 20
-427.9366780881838
 30
0.0
 10
477.5725224114225
 20
-428.3753912692374
 30
0.0
 10
478.8859109947633
 20
-428.6705179180663
 30
0.0
 10
479.7649781208061
 20
-428.8680498125075
 30
0.0
  0
LINE
  5
DE
330
1F
100
AcDbEntity
  8
0
  6
Continuous
 62
     7
370
    25
100
AcDbLine
 10
490.5308900791
 20
-430.3434031632
 30
0.0
 11
571.7982589853
 21
-433.4123887707
 31
0.0
  0
LINE
  5
DF
330
1F
100
AcDbEntity
  8
0
  6
Continuous
 62
     7
370
    25
100
AcDbLine
 10
667.588552073
 20
-267.4807574152
 30
0.0
 11
624.2905888355
 21
-198.639702149
 31
0.0
  0
LINE
  5
E0
330
1F
100
AcDbEntity
  8
0
  6
Continuous
 62
     7
370
    25
100
AcDbLine
 10
734.5403724634
 20
-301.2793901892
 30
0.0
 11
662.7973273102
 21
-259.8630117947
 31
0.0
  0
LINE
  5
E1
330
1F
100
AcDbEntity
  8
0
  6
Continuous
 62
     7
370
    25
100
AcDbLine
 10
562.8054570414
 20
-433.0727852437
 30
0.0
 11
634.5485021945
 21
-474.4891636383
 31
0.0
  0
LWPOLYLINE
  5
E2
330
1F
100
AcDbEntity
  8
0
  6
Continuous
 62
     7
370
    25
100
AcDbPolyline
 90
      126
 70
   128
 43
0.0
 10
339.4763347691
 20
-302.9778376151
 10
339.601373932
 20
-297.1619390429
 10
339.9761542456
 20
-291.2163768445
 10
340.5997590162
 20
-285.1561529658
 10
341.4705866634
 20
-278.9965917243
 10
342.5864455512
 20
-272.7532459015
 10
343.9445223773
 20
-266.4418872337
 10
345.541371637
 20
-260.0784653464
 10
347.3729788428
 20
-253.679040839
 10
349.4347078416
 20
-247.2597898432
 10
351.7213482291
 20
-240.8369249389
 10
354.2271311554
 20
-234.4266738629
 10
356.9457187881
 20
-228.0452217128
 10
359.8702464595
 20
-221.7086987831
 10
362.9933279341
 20
-215.43310452
 10
366.3070712147
 20
-209.2342923135
 10
369.8031101519
 20
-203.1279208302
 10
373.4726097124
 20
-197.1294205543
 10
377.306302858
 20
-191.253935995
 10
381.2945063503
 20
-185.5163165631
 10
385.4271365557
 20
-179.9310526933
 10
389.6937673975
 20
-174.5122545567
 10
394.0836092827
 20
-169.2736033891
 10
398.5855828583
 20
-164.2283514983
 10
403.1883084753
 20
-159.3892127561
 10
407.8801641401
 20
-154.7684447335
 10
412.6492934176
 20
-150.3776981307
 10
417.4836515285
 20
-146.2280631686
 10
422.3710264236
 20
-142.3300452567
 10
427.2990730275
 20
-138.693460052
 10
432.2553402392
 20
-135.3275152116
 10
437.2273101155
 20
-132.240714768
 10
442.2024222368
 20
-129.4408450628
 10
447.1681095985
 20
-126.9349783625
 10
452.111827586
 20
-124.7294439632
 10
457.0210885493
 20
-122.829832567
 10
461.8834901196
 20
-121.2409190973
 10
466.686753076
 20
-119.966726011
 10
471.418737809
 20
-119.0104772922
 10
476.067495687
 20
-118.3745809662
 10
480.6212835445
 20
-118.0606450705
 10
485.068597926
 20
-118.0694639698
 10
489.3982014279
 20
-118.4010153169
 10
493.5991569431
 20
-119.0544646181
 10
497.6608592708
 20
-120.0281530692
 10
501.573040385
 20
-121.3196310162
 10
505.3258221182
 20
-122.9256275417
 10
508.9097214294
 20
-124.8420900097
 10
512.3156925513
 20
-127.0641779855
 10
515.5351217217
 20
-129.5862784448
 10
518.5598798671
 20
-132.4020179457
 10
521.3823278713
 20
-135.5042839224
 10
523.9953376486
 20
-138.8852368547
 10
526.3923079487
 20
-142.5363437294
 10
528.5671801623
 20
-146.4483750005
 10
530.5144593939
 20
-150.6114532603
 10
532.2292355357
 20
-155.0150593254
 10
533.7071674623
 20
-159.6480687371
 10
534.9445251776
 20
-164.4987821846
 10
535.9381792781
 20
-169.5549422331
 10
536.685632563
 20
-174.8037759137
 10
537.1849778875
 20
-180.2320297001
 10
537.4349719194
 20
-185.8259841548
 10
537.4349719194
 20
-191.5715136193
 10
537.1849778875
 20
-197.4541050394
 10
536.685632563
 20
-203.4588906656
 10
535.9381792781
 20
-209.5707155397
 10
534.9445251776
 20
-215.7741241928
 10
533.7071674623
 20
-222.0534604492
 10
532.2292355357
 20
-228.392853742
 10
530.5144593939
 20
-234.7762981983
 10
528.5671801623
 20
-241.1876572029
 10
526.3923079487
 20
-247.6107424825
 10
523.9953376486
 20
-254.0293323583
 10
521.3823278713
 20
-260.4272021626
 10
518.5598798671
 20
-266.788197241
 10
515.5351217217
 20
-273.0962481606
 10
512.3156925513
 20
-279.3354224198
 10
508.9097214294
 20
-285.4899609484
 10
505.3258221182
 20
-291.5443054838
 10
501.573040385
 20
-297.4831715708
 10
497.6608592708
 20
-303.2915576872
 10
493.5991569431
 20
-308.9547878261
 10
489.3982014279
 20
-314.4585571232
 10
485.068597926
 20
-319.78896227
 10
480.6212835445
 20
-324.9325410577
 10
476.067495687
 20
-329.8762967092
 10
471.418737809
 20
-334.6077419821
 10
466.686753076
 20
-339.1149265436
 10
461.8834901196
 20
-343.3864628226
 10
457.0210885493
 20
-347.4115587083
 10
452.111827586
 20
-351.1800593712
 10
447.1681095985
 20
-354.6824202644
 10
442.2024222368
 20
-357.9098141559
 10
437.2273101155
 20
-360.8540866385
 10
432.2553402392
 20
-363.5078004237
 10
427.2990730275
 20
-365.8642399016
 10
422.3710264236
 20
-367.917456195
 10
417.4836515285
 20
-369.6622812256
 10
412.6492934176
 20
-371.0942773301
 10
407.8801641401
 20
-372.2098501857
 10
403.1883084753
 20
-373.0061834076
 10
398.5855828583
 20
-373.4812385469
 10
394.0836092827
 20
-373.6338547067
 10
389.6937673975
 20
-373.4636070958
 10
385.4271365557
 20
-372.9709560732
 10
381.2945063503
 20
-372.1571254757
 10
377.306302858
 20
-371.0241877826
 10
373.4726097124
 20
-369.5749911131
 10
369.8031101519
 20
-367.8132048487
 10
366.3070712147
 20
-365.7432740042
 10
362.9933279341
 20
-363.3704283515
 10
359.8702464595
 20
-360.7006672067
 10
356.9457187881
 20
-357.7407320537
 10
354.2271311554
 20
-354.4980943727
 10
351.7213482291
 20
-350.9809586818
 10
349.4347078416
 20
-347.1981925728
 10
347.3729788428
 20
-343.1593632103
 10
345.541371637
 20
-338.8746673695
 10
343.9445223773
 20
-334.3549283935
 10
342.5864455512
 20
-329.6115718533
 10
341.4705866634
 20
-324.6565692791
 10
340.5997590162
 20
-319.5024442378
 10
339.9761542456
 20
-314.1622191016
 10
339.601373932
 20
-308.6493690429
 10
339.4763347691
 20
-302.9778376151
  0
LWPOLYLINE
  5
E3
330
1F
100
AcDbEntity
  8
0
  6
Continuous
 62
     7
370
    25
100
AcDbPolyline
 90
      118
 70
   128
 43
0.0
 10
351.2143058364
 20
-296.2016511531
 10
351.3400983741
 20
-290.7205145
 10
351.7171124708
 20
-285.10994478
 10
352.344262845
 20
-279.3861173171
 10
353.2197371822
 20
-273.5655389291
 10
354.3410172084
 20
-267.6649874724
 10
355.7048628844
 20
-261.7014802816
 10
357.3073440167
 20
-255.692209533
 10
359.1438455254
 20
-249.65450118
 10
361.2090674442
 20
-243.6057632418
 10
363.4970565308
 20
-237.5634371367
 10
366.0012168034
 20
-231.5449398878
 10
368.7143253459
 20
-225.5676337061
 10
371.6285639178
 20
-219.6487408215
 10
374.735524223
 20
-213.8053373998
 10
378.0262500559
 20
-208.0542683746
 10
381.4912583758
 20
-202.4121109469
 10
385.1205551112
 20
-196.8951350432
 10
388.9036720386
 20
-191.5192516066
 10
392.8297089294
 20
-186.2999578481
 10
396.8873388178
 20
-181.2523037863
 10
401.0648685878
 20
-176.3908390211
 10
405.3502495089
 20
-171.7295883994
 10
409.7311272862
 20
-167.2819805366
 10
414.194871036
 20
-163.0608493403
 10
418.7286075303
 20
-159.0783594878
 10
423.319269929
 20
-155.3459904613
 10
427.9536181947
 20
-151.874512595
 10
432.6182917765
 20
-148.673932327
 10
437.2998416314
 20
-145.7534737131
 10
441.9847686671
 20
-143.1215623187
 10
446.6595657243
 20
-140.7857766476
 10
451.3107529731
 20
-138.7528642104
 10
455.9249214594
 20
-137.0286798834
 10
460.4887666087
 20
-135.6181969864
 10
464.9891307015
 20
-134.5254766773
 10
469.4130351428
 20
-133.7536797432
 10
473.7477278766
 20
-133.3050209763
 10
477.9807070942
 20
-133.1808041578
 10
482.0997739169
 20
-133.3813733932
 10
486.0930455677
 20
-133.9061663459
 10
489.9490133227
 20
-134.7536625312
 10
493.6565556824
 20
-135.921412215
 10
497.2049884206
 20
-137.4060622743
 10
500.5840698531
 20
-139.2033227375
 10
503.7840693263
 20
-141.3080063344
 10
506.7957566803
 20
-143.7140589145
 10
509.6104391277
 20
-146.4145381568
 10
512.2200139368
 20
-149.4016500773
 10
514.6169526268
 20
-152.6667885714
 10
516.7943431146
 20
-156.2005415019
 10
518.7459107881
 20
-159.9927119936
 10
520.4660237746
 20
-164.0323762289
 10
521.949724551
 20
-168.3078804094
 10
523.192729944
 20
-172.8069015926
 10
524.1914680081
 20
-177.5164629044
 10
524.9430516842
 20
-182.4229867694
 10
525.4453156779
 20
-187.5123268539
 10
525.696805923
 20
-192.7698136922
 10
525.696805923
 20
-198.1802820661
 10
525.4453156779
 20
-203.7281333608
 10
524.9430516842
 20
-209.3973751089
 10
524.1914680081
 20
-215.1716590156
 10
523.192729944
 20
-221.0343387514
 10
521.949724551
 20
-226.9685034134
 10
520.4660237746
 20
-232.9570520472
 10
518.7459107881
 20
-238.9827164636
 10
516.7943431146
 20
-245.0281190296
 10
514.6169526268
 20
-251.0758335061
 10
512.2200139368
 20
-257.108418505
 10
509.6104391277
 20
-263.1084813676
 10
506.7957566803
 20
-269.0587237905
 10
503.7840693263
 20
-274.9419965748
 10
500.5840698531
 20
-280.7413209209
 10
497.2049884206
 20
-286.4399857623
 10
493.6565556824
 20
-292.0215690554
 10
489.9490133227
 20
-297.4699560318
 10
486.0930455677
 20
-302.7694578235
 10
482.0997739169
 20
-307.9047840863
 10
477.9807070942
 20
-312.8611266457
 10
473.7477278766
 20
-317.6242036028
 10
469.4130351428
 20
-322.1802745377
 10
464.9891307015
 20
-326.5162089503
 10
460.4887666087
 20
-330.6194984227
 10
455.9249214594
 20
-334.4783189746
 10
451.3107529731
 20
-338.081540185
 10
446.6595657243
 20
-341.4187742384
 10
441.9847686671
 20
-344.4803943625
 10
437.2998416314
 20
-347.2575845877
 10
432.6182917765
 20
-349.7423283834
 10
427.9536181947
 20
-351.9274655946
 10
423.319269929
 20
-353.806692343
 10
418.7286075303
 20
-355.3745893026
 10
414.194871036
 20
-356.6266401861
 10
409.7311272862
 20
-357.5592378231
 10
405.3502495089
 20
-358.1696837783
 10
401.0648685878
 20
-358.4562286514
 10
396.8873388178
 20
-358.4180370923
 10
392.8297089294
 20
-358.0552227801
 10
388.9036720386
 20
-357.36883473
 10
385.1205551112
 20
-356.3608451245
 10
381.4912583758
 20
-355.0341660385
 10
378.0262500559
 20
-353.3926220616
 10
374.735524223
 20
-351.4409442108
 10
371.6285639178
 20
-349.1847608012
 10
368.7143253459
 20
-346.630576152
 10
366.0012168034
 20
-343.7857584165
 10
363.4970565308
 20
-340.6585030766
 10
361.2090674442
 20
-337.2578329417
 10
359.1438455254
 20
-333.5935494764
 10
357.3073440167
 20
-329.6762206317
 10
355.7048628844
 20
-325.5171352162
 10
354.3410172084
 20
-321.1282907253
 10
353.2197371822
 20
-316.5223416304
 10
352.344262845
 20
-311.7125643967
 10
351.7171124708
 20
-306.7128293431
 10
351.3400983741
 20
-301.5375508336
 10
351.2143058364
 20
-296.2016511531
  0
ARC
  5
E4
330
1F
100
AcDbEntity
  8
0
  6
Continuous
 62
     7
370
    25
100
AcDbCircle
 10
582.7909398063
 20
-222.1241136976
 30
0.0
 40
47.31622149187232
100
AcDbArc
 50
47.6237753112
 51
59.9661083167
  0
ARC
  5
E5
330
1F
100
AcDbEntity
  8
0
  6
Continuous
 62
     7
370
    25
100
AcDbCircle
 10
490.1365532854
 20
-382.6102565416
 30
0.0
 40
47.3715296796351
100
AcDbArc
 50
240.0473035752
 51
252.1825592063
  0
ARC
  5
E6
330
1F
100
AcDbEntity
  8
0
  6
Continuous
 62
     7
370
    25
100
AcDbCircle
 10
570.1756106285
 20
-233.0444264612
 30
0.0
 40
64.08313480759908
100
AcDbArc
 50
16.3705132047
 51
40.4088802605
  0
ARC
  5
E7
330
1F
100
AcDbEntity
  8
0
  6
Continuous
 62
     7
370
    25
100
AcDbCircle
 10
493.3290324399
 20
-368.4818110996
 30
0.0
 40
61.90407690302515
100
AcDbArc
 50
257.5664923557
 51
283.0379839807
  0
ARC
  5
E8
330
1F
100
AcDbEntity
  8
0
  6
Continuous
 62
     7
370
    25
100
AcDbCircle
 10
628.6869942583
 20
-291.8419614918
 30
0.0
 40
45.89988523373586
100
AcDbArc
 50
22.5194677385
 51
32.0559076508
  0
ARC
  5
E9
330
1F
100
AcDbEntity
  8
0
  6
Continuous
 62
     7
370
    25
100
AcDbCircle
 10
573.3980340919
 20
-386.3102693932
 30
0.0
 40
47.12927890651923
100
AcDbArc
 50
268.0547554467
 51
279.0074088391
  0
LWPOLYLINE
  5
EA
330
1F
100
AcDbEntity
  8
0
  6
Continuous
 62
     7
370
    25
100
AcDbPolyline
 90
       55
 70
   128
 43
0.0
 10
734.5403724634
 20
-301.2793901892
 10
735.2798599939
 20
-301.719104468
 10
738.1085720735
 20
-303.6567707843
 10
740.749135353
 20
-305.8902881803
 10
743.1922775257
 20
-308.4118108507
 10
745.4294164396
 20
-311.2124862024
 10
747.4526917074
 20
-314.2824731077
 10
749.2550068536
 20
-317.6109875372
 10
750.8300187774
 20
-321.1863421018
 10
752.1722009733
 20
-324.995973436
 10
753.2768382626
 20
-329.0265015134
 10
754.1400478669
 20
-333.2637737551
 10
754.7588057499
 20
-337.6928977326
 10
755.1309308122
 20
-342.2983225356
 10
755.2551165013
 20
-347.0638707144
 10
755.1309308122
 20
-351.9728006378
 10
754.7588057499
 20
-357.0078718924
 10
754.1400478669
 20
-362.1513985151
 10
753.2768382626
 20
-367.3853113519
 10
752.1722009733
 20
-372.6912264961
 10
750.8300187774
 20
-378.0505084085
 10
749.2550068536
 20
-383.4443330331
 10
747.4526917074
 20
-388.8537562369
 10
745.4294164396
 20
-394.2597670429
 10
743.1922775257
 20
-399.6433880049
 10
740.749135353
 20
-404.9857025857
 10
738.1085720735
 20
-410.2679494502
 10
735.2798599939
 20
-415.4715772156
 10
732.2729405021
 20
-420.5782992032
 10
729.098376652
 20
-425.5701786055
 10
725.7673110167
 20
-430.4296862775
 10
722.2914498833
 20
-435.1397524466
 10
718.683002667
 20
-439.6838321068
 10
714.9546397641
 20
-444.045965852
 10
711.1194609421
 20
-448.2108285422
 10
707.1909347532
 20
-452.1637946979
 10
703.1828642902
 20
-455.8909765202
 10
699.1093252835
 20
-459.3792778773
 10
694.9846259296
 20
-462.6164539977
 10
690.8232555248
 20
-465.5911289557
 10
686.6398299705
 20
-468.2928514652
 10
682.4490446874
 20
-470.7121403131
 10
678.2656191331
 20
-472.8404981374
 10
674.1042487283
 20
-474.6704391797
 10
669.9795493744
 20
-476.1955395654
 10
665.9060103677
 20
-477.4104462348
 10
661.8979399048
 20
-478.3108840675
 10
657.9694137158
 20
-478.8936977027
 10
654.1342348938
 20
-479.1568382277
 10
650.405871991
 20
-479.0993806626
 10
646.7974247747
 20
-478.7215254776
 10
643.3215636413
 20
-478.024603151
 10
639.9904980059
 20
-477.0110619979
 10
636.8159341558
 20
-475.6844559994
 10
634.5485021945
 20
-474.4891636383
  0
LWPOLYLINE
  5
EB
330
1F
100
AcDbEntity
  8
0
  6
Continuous
 62
     1
370
    25
100
AcDbPolyline
 90
       59
 70
   128
 43
0.0
 10
614.6818791892
 20
-187.1699608465
 10
616.5675713384
 20
-188.9806539219
 10
619.3900193427
 20
-192.0829198987
 10
622.0030291199
 20
-195.463872831
 10
624.3999994201
 20
-199.1149797057
 10
626.5748716337
 20
-203.0270109768
 10
628.5221508653
 20
-207.1900892366
 10
630.2369270071
 20
-211.5936953016
 10
631.7148589337
 20
-216.2267047134
 10
632.952216649
 20
-221.0774181608
 10
633.9458707495
 20
-226.1335782094
 10
634.6933240344
 20
-231.38241189
 10
635.1926693588
 20
-236.8106656764
 10
635.4426633908
 20
-242.4046201311
 10
635.4426633908
 20
-248.1501495955
 10
635.1926693588
 20
-254.0327410157
 10
634.6933240344
 20
-260.0375266419
 10
633.9458707495
 20
-266.149351516
 10
632.952216649
 20
-272.3527601691
 10
631.7148589337
 20
-278.6320964255
 10
630.2369270071
 20
-284.9714897183
 10
628.5221508653
 20
-291.3549341746
 10
626.5748716337
 20
-297.7662931792
 10
624.3999994201
 20
-304.1893784588
 10
622.0030291199
 20
-310.6079683346
 10
619.3900193427
 20
-317.0058381388
 10
616.5675713384
 20
-323.3668332173
 10
613.542813193
 20
-329.6748841369
 10
610.3233840227
 20
-335.9140583961
 10
606.9174129008
 20
-342.0685969247
 10
603.3335135896
 20
-348.1229414601
 10
599.5807318564
 20
-354.0618075471
 10
595.6685507421
 20
-359.8701936635
 10
591.6068484144
 20
-365.5334238024
 10
587.4058928992
 20
-371.0371930995
 10
583.0762893973
 20
-376.3675982463
 10
578.6289750159
 20
-381.511177034
 10
574.0751871584
 20
-386.4549326855
 10
569.4264292803
 20
-391.1863779584
 10
564.6944445473
 20
-395.6935625199
 10
559.8911815909
 20
-399.9650987988
 10
555.0287800207
 20
-403.9901946846
 10
550.1195190574
 20
-407.7586953474
 10
545.1758010698
 20
-411.2610562406
 10
540.2101137082
 20
-414.4884501322
 10
535.2350015868
 20
-417.4327226148
 10
530.2630317106
 20
-420.0864364
 10
525.3067644989
 20
-422.4428758779
 10
520.378717895
 20
-424.4960921713
 10
515.4913429999
 20
-426.2409172019
 10
510.6569848889
 20
-427.6729133064
 10
505.8878556115
 20
-428.788486162
 10
501.1959999466
 20
-429.5848193839
 10
496.5932743296
 20
-430.0598745231
 10
492.091300754
 20
-430.212490683
 10
487.7014588689
 20
-430.0422430721
 10
483.434828027
 20
-429.5495920495
 10
479.3021978216
 20
-428.735761452
 10
475.6415701727
 20
-427.7096721559
  0
LWPOLYLINE
  5
EC
330
1F
100
AcDbEntity
  8
0
  6
Continuous
 62
     1
370
    25
100
AcDbPolyline
 90
       26
 70
   128
 43
0.0
 10
449.4997371369
 20
-339.4157632076
 10
449.9317317974
 20
-335.7221639969
 10
450.8072061347
 20
-329.9015856089
 10
451.9284861608
 20
-324.0010341522
 10
453.2923318369
 20
-318.0375269614
 10
454.8948129692
 20
-312.0282562128
 10
456.7313144778
 20
-305.9905478598
 10
458.7965363966
 20
-299.9418099216
 10
461.0845254833
 20
-293.8994838165
 10
463.5886857559
 20
-287.8809865676
 10
466.3017942984
 20
-281.9036803859
 10
469.2160328703
 20
-275.9847875013
 10
472.3229931754
 20
-270.1413840796
 10
475.6137190084
 20
-264.3903150543
 10
479.0787273283
 20
-258.7481576267
 10
482.7080240637
 20
-253.231181723
 10
486.4911409911
 20
-247.8552982864
 10
490.4171778818
 20
-242.6360045278
 10
494.4748077703
 20
-237.5883504661
 10
498.6523375402
 20
-232.7268857009
 10
502.9377184613
 20
-228.0656350792
 10
507.3185962386
 20
-223.6180272164
 10
511.7823399885
 20
-219.3968960201
 10
516.3160764828
 20
-215.4144061676
 10
520.9067388815
 20
-211.682037141
 10
525.0302969777
 20
-208.5788198739
  0
LWPOLYLINE
  5
ED
330
1F
100
AcDbEntity
  8
0
  6
Continuous
 62
     1
370
    25
100
AcDbPolyline
 90
       45
 70
   128
 43
0.0
 10
631.6607608194
 20
-214.9827412472
 10
632.1512553057
 20
-216.6309202448
 10
633.3872748586
 20
-221.476401582
 10
634.3798647511
 20
-226.527102928
 10
635.1265067092
 20
-231.7702756467
 10
635.6253146613
 20
-237.1926722975
 10
635.8750347388
 20
-242.7805943546
 10
635.8750347388
 20
-248.5199252861
 10
635.6253146613
 20
-254.3961680075
 10
635.1265067092
 20
-260.3944760612
 10
634.3798647511
 20
-266.4997032354
 10
633.3872748586
 20
-272.6964244776
 10
632.1512553057
 20
-278.9689836143
 10
630.6749144226
 20
-285.301542016
 10
628.9619927422
 20
-291.6780938107
 10
627.0168103163
 20
-298.0825388834
 10
624.8442877895
 20
-304.4986920038
 10
622.4499042522
 20
-310.9103558263
 10
619.8397130454
 20
-317.3013300175
 10
617.020310151
 20
-323.6554629645
 10
613.9988131179
 20
-329.9567095682
 10
610.7828557942
 20
-336.1891525357
 10
607.3805619849
 20
-342.3370419218
 10
603.800529647
 20
-348.3848590066
 10
600.0517940113
 20
-354.3173193338
 10
596.1438328503
 20
-360.1194426738
 10
592.0865137948
 20
-365.7765591024
 10
587.8900890658
 20
-371.2743911303
 10
583.5651585957
 20
-376.5990445743
 10
579.1226410525
 20
-381.7370800377
 10
574.5737685712
 20
-386.6755037846
 10
569.9300235339
 20
-391.4018407381
 10
565.2031438379
 20
-395.9041679417
 10
560.4050649439
 20
-400.1710932601
 10
555.5479067051
 20
-404.1918481553
 10
550.6439430738
 20
-407.9562686713
 10
545.7055579796
 20
-411.4548574085
 10
540.7452282069
 20
-414.6787812402
 10
535.7754834702
 20
-417.6198700258
 10
530.8088775213
 20
-420.2707184624
 10
525.8579570324
 20
-422.6246067087
 10
520.9352275169
 20
-424.6756173982
 10
516.0531249291
 20
-426.4185546942
 10
511.2239811736
 20
-427.8490128715
 10
507.2944039476
 20
-428.7900454948
  0
LWPOLYLINE
  5
EE
330
1F
100
AcDbEntity
  8
0
  6
Continuous
 62
     1
370
    25
100
AcDbPolyline
 90
       41
 70
   128
 43
0.0
 10
671.0869881121
 20
-274.2624283448
 10
671.4751869287
 20
-275.2172380981
 10
672.8193974417
 20
-279.0326232849
 10
673.9257047999
 20
-283.0692397848
 10
674.7902209565
 20
-287.312909163
 10
675.4099060702
 20
-291.7487275823
 10
675.7825948465
 20
-296.3611072516
 10
675.9069701964
 20
-301.1338520887
 10
675.7825948465
 20
-306.0501976483
 10
675.4099060702
 20
-311.0928746196
 10
674.7902209565
 20
-316.2441662419
 10
673.9257047999
 20
-321.4859847283
 10
672.8193974417
 20
-326.7999165156
 10
671.4751869287
 20
-332.1672941256
 10
669.8977937079
 20
-337.5692646052
 10
668.0927653584
 20
-342.9868518841
 10
666.0664291757
 20
-348.4010328161
 10
663.8259079772
 20
-353.7927873718
 10
661.3790779553
 20
-359.1431716388
 10
658.7345265303
 20
-364.4333938638
 10
655.9015470823
 20
-369.6448752896
 10
652.8900862675
 20
-374.7593109866
 10
649.710722945
 20
-379.7587367723
 10
646.3746286638
 20
-384.6255824393
 10
642.8935176136
 20
-389.3427614857
 10
639.2796176488
 20
-393.8937060933
 10
635.5456255075
 20
-398.2624294817
 10
631.7046514938
 20
-402.4335821771
 10
627.7701957701
 20
-406.3925143683
 10
623.7560693318
 20
-410.1253276105
 10
619.6763768853
 20
-413.6188968771
 10
615.5454483589
 20
-416.860964851
 10
611.3777921467
 20
-419.8401324142
 10
607.1880485164
 20
-422.5459402979
 10
602.9909333035
 20
-424.9688833366
 10
598.8011896732
 20
-427.1004504819
 10
594.6335334611
 20
-428.9331563577
 10
590.5026049347
 20
-430.4605569393
 10
586.4229124881
 20
-431.6773003097
 10
582.4087860499
 20
-432.5790988027
 10
580.7766967565
 20
-432.8583549342
  0
LWPOLYLINE
  5
EF
330
1F
100
AcDbEntity
  8
0
  6
Continuous
 62
     1
370
    25
100
AcDbPolyline
 90
       26
 70
   128
 43
0.0
 10
451.3363097684
 20
-338.0623871669
 10
451.543124354
 20
-336.3975783977
 10
452.4159223664
 20
-330.5948097994
 10
453.5337674244
 20
-324.7123159723
 10
454.8934405624
 20
-318.7670564575
 10
456.4910221236
 20
-312.7761702
 10
458.3219022963
 20
-306.7569375259
 10
460.3808021879
 20
-300.7267117031
 10
462.6617896293
 20
-294.7028733149
 10
465.1582897122
 20
-288.7027907165
 10
467.8630953255
 20
-282.7437713674
 10
470.7684145706
 20
-276.8429979556
 10
473.8658707614
 20
-271.0174736456
 10
477.1465287659
 20
-265.284000787
 10
480.6009318851
 20
-259.6591048718
 10
484.2191229259
 20
-254.1590162859
 10
487.990665275
 20
-248.7995790546
 10
491.9046850455
 20
-243.5962569311
 10
495.949900053
 20
-238.5640497476
 10
500.1146461569
 20
-233.7174599579
 10
504.3869141398
 20
-229.0704713477
 10
508.7543865851
 20
-224.6364790757
 10
513.2044721218
 20
-220.4282577367
 10
517.7243370346
 20
-216.4579552818
 10
522.3009513618
 20
-212.7370116525
 10
524.7767375858
 20
-210.8460480386
  0
LWPOLYLINE
  5
F0
330
1F
100
AcDbEntity
  8
0
  6
Continuous
 62
     1
370
    25
100
AcDbPolyline
 90
       47
 70
   128
 43
0.0
 10
666.0315421219
 20
-265.0052034274
 10
666.5136072384
 20
-265.6553592612
 10
668.5368825062
 20
-268.7253461666
 10
670.3391976524
 20
-272.053860596
 10
671.9142095762
 20
-275.6292151606
 10
673.2563917721
 20
-279.4388464949
 10
674.3610290614
 20
-283.4693745722
 10
675.2242386658
 20
-287.7066468139
 10
675.8429965488
 20
-292.1357707915
 10
676.215121611
 20
-296.7411955944
 10
676.3393073001
 20
-301.5067437732
 10
676.215121611
 20
-306.4156736967
 10
675.8429965488
 20
-311.4507449513
 10
675.2242386658
 20
-316.594271574
 10
674.3610290614
 20
-321.8281844108
 10
673.2563917721
 20
-327.134099555
 10
671.9142095762
 20
-332.4933814674
 10
670.3391976524
 20
-337.887206092
 10
668.5368825062
 20
-343.2966292958
 10
666.5136072384
 20
-348.7026401017
 10
664.2764683245
 20
-354.0862610638
 10
661.8333261518
 20
-359.4285756446
 10
659.1927628723
 20
-364.710822509
 10
656.3640507927
 20
-369.9144502745
 10
653.3571313009
 20
-375.0211722621
 10
650.1825674508
 20
-380.0130516644
 10
646.8515018155
 20
-384.8725593363
 10
643.3756406821
 20
-389.5826255054
 10
639.7671934658
 20
-394.1267051657
 10
636.038830563
 20
-398.4888389109
 10
632.2036517409
 20
-402.6537016011
 10
628.275125552
 20
-406.6066677568
 10
624.267055089
 20
-410.333849579
 10
620.1935160823
 20
-413.8221509362
 10
616.0688167284
 20
-417.0593270566
 10
611.9074463236
 20
-420.0340020145
 10
607.7240207693
 20
-422.735724524
 10
603.5332354862
 20
-425.155013372
 10
599.349809932
 20
-427.2833711963
 10
595.1884395271
 20
-429.1133122386
 10
591.0637401733
 20
-430.6384126243
 10
586.9902011666
 20
-431.8533192937
 10
582.9821307036
 20
-432.7537571263
 10
579.0536045146
 20
-433.3365707616
 10
575.2184256926
 20
-433.5997112866
 10
571.4900627898
 20
-433.5422537214
 10
568.8758518273
 20
-433.3020245845
  0
ENDSEC
  0
SECTION
  2
OBJECTS
  0
DICTIONARY
  5
C
330
0
100
AcDbDictionary
281
     1
  3
ACAD_GROUP
350
D
  3
ACAD_LAYOUT
350
1A
  3
ACAD_MLINESTYLE
350
17
  3
ACAD_PLOTSETTINGS
350
19
  3
ACAD_PLOTSTYLENAME
350
E
  3
ACAD_SCALELIST
350
47
  0
DICTIONARY
  5
D
102
{ACAD_REACTORS
330
C
102
}
330
C
100
AcDbDictionary
281
     1
  0
DICTIONARY
  5
1A
102
{ACAD_REACTORS
330
C
102
}
330
C
100
AcDbDictionary
281
     1
  3
Layout1
350
1E
  3
Layout2
350
26
  3
Model
350
22
  0
DICTIONARY
  5
17
102
{ACAD_REACTORS
330
C
102
}
330
C
100
AcDbDictionary
281
     1
  3
Standard
350
18
  0
DICTIONARY
  5
19
102
{ACAD_REACTORS
330
C
102
}
330
C
100
AcDbDictionary
281
     1
  0
ACDBDICTIONARYWDFLT
  5
E
102
{ACAD_REACTORS
330
C
102
}
330
C
100
AcDbDictionary
281
     1
  3
Normal
350
F
100
AcDbDictionaryWithDefault
340
F
  0
DICTIONARY
  5
47
102
{ACAD_REACTORS
330
C
102
}
330
C
100
AcDbDictionary
281
     1
  3
A0
350
48
  3
A1
350
49
  3
A2
350
4A
  3
A3
350
4B
  3
A4
350
4C
  3
A5
350
4D
  3
A6
350
4E
  3
A7
350
4F
  3
A8
350
50
  3
A9
350
51
  3
B0
350
52
  3
B1
350
53
  3
B2
350
54
  3
B3
350
55
  3
B4
350
56
  3
B5
350
57
  3
B6
350
58
  3
B7
350
59
  3
B8
350
5A
  3
B9
350
5B
  3
C0
350
5C
  3
C1
350
5D
  3
C2
350
5E
  3
C3
350
5F
  3
C4
350
60
  3
C5
350
61
  3
C6
350
62
  3
C7
350
63
  3
C8
350
64
  3
C9
350
65
  3
D0
350
66
  3
D1
350
67
  3
D2
350
68
  0
LAYOUT
  5
1E
102
{ACAD_REACTORS
330
1A
102
}
330
1A
100
AcDbPlotSettings
  1

  2
none_device
  4

  6

 40
0.0
 41
0.0
 42
0.0
 43
0.0
 44
0.0
 45
0.0
 46
0.0
 47
0.0
 48
0.0
 49
0.0
140
0.0
141
0.0
142
1.0
143
1.0
 70
   688
 72
     1
 73
     0
 74
     5
  7

 75
    16
147
1.0
148
0.0
149
0.0
100
AcDbLayout
  1
Layout1
 70
     1
 71
     1
 10
0.0
 20
0.0
 11
420.0
 21
297.0
 12
0.0
 22
0.0
 32
0.0
 14
1.0000000000E+20
 24
1.0000000000E+20
 34
1.0000000000E+20
 15
-1.0000000000E+20
 25
-1.0000000000E+20
 35
-1.0000000000E+20
146
0.0
 13
0.0
 23
0.0
 33
0.0
 16
1.0
 26
0.0
 36
0.0
 17
0.0
 27
1.0
 37
0.0
 76
     0
330
1B
  0
LAYOUT
  5
26
102
{ACAD_REACTORS
330
1A
102
}
330
1A
100
AcDbPlotSettings
  1

  2
none_device
  4

  6

 40
0.0
 41
0.0
 42
0.0
 43
0.0
 44
0.0
 45
0.0
 46
0.0
 47
0.0
 48
0.0
 49
0.0
140
0.0
141
0.0
142
1.0
143
1.0
 70
   688
 72
     1
 73
     0
 74
     5
  7

 75
    16
147
1.0
148
0.0
149
0.0
100
AcDbLayout
  1
Layout2
 70
     1
 71
     2
 10
0.0
 20
0.0
 11
0.0
 21
0.0
 12
0.0
 22
0.0
 32
0.0
 14
0.0
 24
0.0
 34
0.0
 15
0.0
 25
0.0
 35
0.0
146
0.0
 13
0.0
 23
0.0
 33
0.0
 16
1.0
 26
0.0
 36
0.0
 17
0.0
 27
1.0
 37
0.0
 76
     0
330
23
  0
LAYOUT
  5
22
102
{ACAD_REACTORS
330
1A
102
}
330
1A
100
AcDbPlotSettings
  1

  2
none_device
  4
Letter_(8.50_x_11.00_Inches)
  6

 40
6.35
 41
6.35
 42
6.35000508
 43
6.35000508
 44
215.9
 45
279.4
 46
0.0
 47
0.0
 48
0.0
 49
0.0
140
0.0
141
0.0
142
1.0
143
1.0
 70
  1712
 72
     1
 73
     0
 74
     0
  7

 75
     0
147
1.0
148
0.0
149
0.0
100
AcDbLayout
  1
Model
 70
     1
 71
     0
 10
0.0
 20
0.0
 11
279.4
 21
215.9
 12
0.0
 22
0.0
 32
0.0
 14
0.0
 24
0.0
 34
0.0
 15
279.4
 25
215.9
 35
0.0
146
0.0
 13
0.0
 23
0.0
 33
0.0
 16
1.0
 26
0.0
 36
0.0
 17
0.0
 27
1.0
 37
0.0
 76
     0
330
1F
331
29
  0
MLINESTYLE
  5
18
102
{ACAD_REACTORS
330
17
102
}
330
17
100
AcDbMlineStyle
  2
Standard
 70
     0
  3

 62
   256
 51
90.0
 52
90.0
 71
     2
 49
0.5
 62
   256
  6
BYLAYER
 49
-0.5
 62
   256
  6
BYLAYER
  0
ACDBPLACEHOLDER
  5
F
102
{ACAD_REACTORS
330
E
102
}
330
E
  0
SCALE
  5
48
102
{ACAD_REACTORS
330
47
102
}
330
47
100
AcDbScale
 70
     0
300
1:1
140
1.0
141
1.0
290
     1
  0
SCALE
  5
49
102
{ACAD_REACTORS
330
47
102
}
330
47
100
AcDbScale
 70
     0
300
1:2
140
1.0
141
2.0
290
     0
  0
SCALE
  5
4A
102
{ACAD_REACTORS
330
47
102
}
330
47
100
AcDbScale
 70
     0
300
1:4
140
1.0
141
4.0
290
     0
  0
SCALE
  5
4B
102
{ACAD_REACTORS
330
47
102
}
330
47
100
AcDbScale
 70
     0
300
1:5
140
1.0
141
5.0
290
     0
  0
SCALE
  5
4C
102
{ACAD_REACTORS
330
47
102
}
330
47
100
AcDbScale
 70
     0
300
1:8
140
1.0
141
8.0
290
     0
  0
SCALE
  5
4D
102
{ACAD_REACTORS
330
47
102
}
330
47
100
AcDbScale
 70
     0
300
1:10
140
1.0
141
10.0
290
     0
  0
SCALE
  5
4E
102
{ACAD_REACTORS
330
47
102
}
330
47
100
AcDbScale
 70
     0
300
1:16
140
1.0
141
16.0
290
     0
  0
SCALE
  5
4F
102
{ACAD_REACTORS
330
47
102
}
330
47
100
AcDbScale
 70
     0
300
1:20
140
1.0
141
20.0
290
     0
  0
SCALE
  5
50
102
{ACAD_REACTORS
330
47
102
}
330
47
100
AcDbScale
 70
     0
300
1:30
140
1.0
141
30.0
290
     0
  0
SCALE
  5
51
102
{ACAD_REACTORS
330
47
102
}
330
47
100
AcDbScale
 70
     0
300
1:40
140
1.0
141
40.0
290
     0
  0
SCALE
  5
52
102
{ACAD_REACTORS
330
47
102
}
330
47
100
AcDbScale
 70
     0
300
1:50
140
1.0
141
50.0
290
     0
  0
SCALE
  5
53
102
{ACAD_REACTORS
330
47
102
}
330
47
100
AcDbScale
 70
     0
300
1:100
140
1.0
141
100.0
290
     0
  0
SCALE
  5
54
102
{ACAD_REACTORS
330
47
102
}
330
47
100
AcDbScale
 70
     0
300
2:1
140
2.0
141
1.0
290
     0
  0
SCALE
  5
55
102
{ACAD_REACTORS
330
47
102
}
330
47
100
AcDbScale
 70
     0
300
4:1
140
4.0
141
1.0
290
     0
  0
SCALE
  5
56
102
{ACAD_REACTORS
330
47
102
}
330
47
100
AcDbScale
 70
     0
300
8:1
140
8.0
141
1.0
290
     0
  0
SCALE
  5
57
102
{ACAD_REACTORS
330
47
102
}
330
47
100
AcDbScale
 70
     0
300
10:1
140
10.0
141
1.0
290
     0
  0
SCALE
  5
58
102
{ACAD_REACTORS
330
47
102
}
330
47
100
AcDbScale
 70
     0
300
100:1
140
100.0
141
1.0
290
     0
  0
SCALE
  5
59
102
{ACAD_REACTORS
330
47
102
}
330
47
100
AcDbScale
 70
     0
300
1/128" = 1'-0"
140
0.0078125
141
12.0
290
     0
  0
SCALE
  5
5A
102
{ACAD_REACTORS
330
47
102
}
330
47
100
AcDbScale
 70
     0
300
1/64" = 1'-0"
140
0.015625
141
12.0
290
     0
  0
SCALE
  5
5B
102
{ACAD_REACTORS
330
47
102
}
330
47
100
AcDbScale
 70
     0
300
1/32" = 1'-0"
140
0.03125
141
12.0
290
     0
  0
SCALE
  5
5C
102
{ACAD_REACTORS
330
47
102
}
330
47
100
AcDbScale
 70
     0
300
1/16" = 1'-0"
140
0.0625
141
12.0
290
     0
  0
SCALE
  5
5D
102
{ACAD_REACTORS
330
47
102
}
330
47
100
AcDbScale
 70
     0
300
3/32" = 1'-0"
140
0.09375
141
12.0
290
     0
  0
SCALE
  5
5E
102
{ACAD_REACTORS
330
47
102
}
330
47
100
AcDbScale
 70
     0
300
1/8" = 1'-0"
140
0.125
141
12.0
290
     0
  0
SCALE
  5
5F
102
{ACAD_REACTORS
330
47
102
}
330
47
100
AcDbScale
 70
     0
300
3/16" = 1'-0"
140
0.1875
141
12.0
290
     0
  0
SCALE
  5
60
102
{ACAD_REACTORS
330
47
102
}
330
47
100
AcDbScale
 70
     0
300
1/4" = 1'-0"
140
0.25
141
12.0
290
     0
  0
SCALE
  5
61
102
{ACAD_REACTORS
330
47
102
}
330
47
100
AcDbScale
 70
     0
300
3/8" = 1'-0"
140
0.375
141
12.0
290
     0
  0
SCALE
  5
62
102
{ACAD_REACTORS
330
47
102
}
330
47
100
AcDbScale
 70
     0
300
1/2" = 1'-0"
140
0.5
141
12.0
290
     0
  0
SCALE
  5
63
102
{ACAD_REACTORS
330
47
102
}
330
47
100
AcDbScale
 70
     0
300
3/4" = 1'-0"
140
0.75
141
12.0
290
     0
  0
SCALE
  5
64
102
{ACAD_REACTORS
330
47
102
}
330
47
100
AcDbScale
 70
     0
300
1" = 1'-0"
140
1.0
141
12.0
290
     0
  0
SCALE
  5
65
102
{ACAD_REACTORS
330
47
102
}
330
47
100
AcDbScale
 70
     0
300
1-1/2" = 1'-0"
140
1.5
141
12.0
290
     0
  0
SCALE
  5
66
102
{ACAD_REACTORS
330
47
102
}
330
47
100
AcDbScale
 70
     0
300
3" = 1'-0"
140
3.0
141
12.0
290
     0
  0
SCALE
  5
67
102
{ACAD_REACTORS
330
47
102
}
330
47
100
AcDbScale
 70
     0
300
6" = 1'-0"
140
6.0
141
12.0
290
     0
  0
SCALE
  5
68
102
{ACAD_REACTORS
330
47
102
}
330
47
100
AcDbScale
 70
     0
300
1'-0" = 1'-0"
140
12.0
141
12.0
290
     0
  0
ENDSEC
  0
EOF
